Apprendre la guitare/Metal/Thrash Speed

Un livre de Wikilivres.
Aller à : navigation, rechercher

Le Style Thrash/Speed peut être a la fois très simple et très compliqué. Techniquement il n'y a pas de problèmes majeurs, excepté la rythmique de main droite. Dans la pratique, pour réaliser une bonne chanson de thrash/speed au niveau de la guitare, il y a trois points importants à respecter :

  • Un Riff à tout casser,
  • Une Rythmique vraiment Speed,
  • Un Solo simple mais dévastateur.

Je vais traiter des deux derniers points : ce sont, il me semble, les plus caractéristiques du style.

La Rythmique[modifier | modifier le wikicode]

Pour jouer du Thrash/Speed metal ou tout simplement du Rock dans sa globalité, il faut avoir en tête un type d'accord que l'on appelle des « Power Chords » ou « accords de puissance » en français. Ces accords ont trois qualités qui les rendent très appréciables :

  • Ils ne sont ni majeurs ni mineurs,
  • Ils sont très simples a former et à déplacer,
  • Ils sonnent super avec de la disto.

Remarquez que la forme reste la même et que la tonique peut être sur la corde de Mi ou de La.

Pour les intéressés, sachez qu'un Power Chord est composé de la tonique, de la quinte puis à nouveau de la tonique une octave plus haute. En fait la deuxième tonique n'est pas indispensable : votre Power sonnera d'une manière plus sombre si vous ne la jouez pas.

Voici un exercice simple pour apprendre à former et à déplacer des Power Chords.

E---------------------------------------------------------------------
B---------------------------------------------------------------------
G------2---2---7---5---2---------------------------5------------------
D--2---2---2---7---5---2---2---5---6---9---8---5---5---5---3---2------
A--2---0---0---5---3---0---2---5---6---9---8---5---3---3---1---0---2--
E--0-----------------------0---3---4---7---6---3-------------------0--

Jouez cet exercice avec un métronome, restez bien dans le rythme et veillez à bien faire sonner toutes les notes. Notez que sur les 4 derniers accords on oublie la deuxième tonique.

Bien, que vous maitrisez les Power Chords et que vous pouvez les déplacer à votre guise sur le manche, on peut passer aux choses sérieuses.

Une caractérisique du Thrash/Speed metal est l'attaque fréquente de la corde de Mi grave. Un petit exercice pour illustrer ceci :

E-----------------------------------------------------------------
B-----------------------------------------------------------------
G-----------------------------------------------------------------
D--2---------------------------2---5---------------------------5--
A--2---------------------------2---5---------------------------5--
E--0---0-0-0-0-0-0-0-0-0-0-0-0-0---3---3-3-3-3-3-3-3-3-3-3-3-3-3--

Les attaques doivent être très rapides.

En bref, pour une bonne Rythmique, mélangez Power Chords de deux ou trois notes et attaques de la corde de Mi ou La. Choisissez trois ou quatre Power Chords et reliez les entre eux par des attaques rapides de la tonique.

Voila un rythmique type :

e-----------------------------------------------------
B-----------------------------------------------------
G-----------------------7--5--------------------------
D--7--------------------7--5--5--7--------------------
A--7--------------------5--3--5--7--------------------
E--5-5-5-5-5-5-5-5-5-5--------3--5-5-5-5-5-5-5-5-5-5--

Répétez ceci avec beaucoup de distorsion et n'oubliez pas d'avoir un jeu agressif et rapide.

Le Solo[modifier | modifier le wikicode]

La plupart des solo de Speed/Thrash Metal s'effectuent sur la gamme pentatonique de blues (voir la section appropriée), la plupart des solos metals sont du shred.

Quelques exercices[modifier | modifier le wikicode]

Exercice 01[modifier | modifier le wikicode]

E|---------------------------------|---------------------------------|
B|---------------------------------|---------------------------------|
G|---------------------------------|---------------------------------|
D|---------------------------------|---------------------------------|
A|---------------------------------|---------2---3---2---0-----------|
E|-0---0---0---0---0---0---0---0---|-0---3-------------------3---2---|

Exercice 02[modifier | modifier le wikicode]

E|---------------------------------|---------------------------------|
B|---------------------------------|---------------------------------|
G|---------------------------------|---------------------------------|
D|---------------------------------|---------------------------------|
A|-2---5-\-4-\-3-\-2---5-\-4-\-3-\-|-2---5-\-4-\-3-/-4-/-5-/-6-/-7---|
E|-0---3-\-2-\-1-\-0---3-\-2-\-1-\-|-0---3-\-2-\-1-/-2-/-3-/-4-/-5---|

Dans celui-là, il y a de nombreux slides, il est donc préférable de le jouer avec une guitare électrique si vous en, avez une, et de préférence avec la disto pour que les notes continuent à s'entendre sur la fin. Néanmoins, c'est tout à fait jouable avec une guitare sèche et ça donne même sans les slides.